ISO-10303-21;
HEADER;
FILE_DESCRIPTION (( 'STEP AP203' ),
    '1' );
FILE_NAME ('ALF-CC4040-3.step',
    '2024-08-13T07:00:02',
    ( '' ),
    ( '' ),
    'SwSTEP 2.0',
    'SolidWorks 2022',
    '' );
FILE_SCHEMA (( 'CONFIG_CONTROL_DESIGN' ));
ENDSEC;

DATA;
#1 = LINE ( 'NONE', #210, #99 ) ;
#2 = ADVANCED_FACE ( 'NONE', ( #294 ), #247, .F. ) ;
#3 = PERSON_AND_ORGANIZATION ( #60, #199 ) ;
#4 = ORIENTED_EDGE ( 'NONE', *, *, #237, .F. ) ;
#5 = DIRECTION ( 'NONE',  ( -1.000000000000000000, -7.032662740446513982E-17, 0.000000000000000000 ) ) ;
#6 = CALENDAR_DATE ( 2024, 13, 8 ) ;
#7 = ORIENTED_EDGE ( 'NONE', *, *, #177, .F. ) ;
#8 = LOCAL_TIME ( 10, 0, 2.000000000000000000, #231 ) ;
#9 = DIRECTION ( 'NONE',  ( 0.000000000000000000, -1.000000000000000000, 0.000000000000000000 ) ) ;
#10 =( NAMED_UNIT ( * ) SI_UNIT ( $, .STERADIAN. ) SOLID_ANGLE_UNIT ( ) );
#11 = DIRECTION ( 'NONE',  ( 1.172110456741085828E-16, -1.000000000000000000, 0.000000000000000000 ) ) ;
#12 = LINE ( 'NONE', #109, #20 ) ;
#13 = ADVANCED_FACE ( 'NONE', ( #272 ), #52, .F. ) ;
#14 = PERSON_AND_ORGANIZATION ( #60, #199 ) ;
#15 = ORIENTED_EDGE ( 'NONE', *, *, #39, .F. ) ;
#16 = DIRECTION ( 'NONE',  ( -1.000000000000000000, -1.172110456741085828E-16, 0.000000000000000000 ) ) ;
#17 = CARTESIAN_POINT ( 'NONE',  ( 40.00000000000000000, 0.000000000000000000, 1000.000000000000000 ) ) ;
#18 = LINE ( 'NONE', #164, #258 ) ;
#19 = VERTEX_POINT ( 'NONE', #223 ) ;
#20 = VECTOR ( 'NONE', #16, 1000.000000000000000 ) ;
#21 = CARTESIAN_POINT ( 'NONE',  ( 0.000000000000000000, 0.000000000000000000, 0.000000000000000000 ) ) ;
#22 = ORIENTED_EDGE ( 'NONE', *, *, #43, .T. ) ;
#23 = VECTOR ( 'NONE', #271, 1000.000000000000000 ) ;
#24 = PLANE ( 'NONE',  #227 ) ;
#25 = DIRECTION ( 'NONE',  ( -7.032662740446513982E-17, 1.000000000000000000, 0.000000000000000000 ) ) ;
#26 = CC_DESIGN_DATE_AND_TIME_ASSIGNMENT ( #76, #244, ( #195 ) ) ;
#27 = FACE_OUTER_BOUND ( 'NONE', #142, .T. ) ;
#28 = VECTOR ( 'NONE', #259, 1000.000000000000000 ) ;
#29 = DIRECTION ( 'NONE',  ( -6.123233995736771737E-18, 1.000000000000000000, 0.000000000000000000 ) ) ;
#30 = CARTESIAN_POINT ( 'NONE',  ( 40.00000000000000000, 3.000000000000000000, 1000.000000000000000 ) ) ;
#31 = EDGE_CURVE ( 'NONE', #267, #201, #127, .T. ) ;
#32 = ORIENTED_EDGE ( 'NONE', *, *, #237, .T. ) ;
#33 = COORDINATED_UNIVERSAL_TIME_OFFSET ( 3, 0, .AHEAD. ) ;
#34 = CC_DESIGN_APPROVAL ( #290, ( #79 ) ) ;
#35 = DIRECTION ( 'NONE',  ( -0.000000000000000000, -0.000000000000000000, -1.000000000000000000 ) ) ;
#36 = APPLICATION_CONTEXT ( 'configuration controlled 3d designs of mechanical parts and assemblies' ) ;
#37 = LINE ( 'NONE', #301, #121 ) ;
#38 = APPROVAL_STATUS ( 'not_yet_approved' ) ;
#39 = EDGE_CURVE ( 'NONE', #71, #120, #226, .T. ) ;
#40 = CARTESIAN_POINT ( 'NONE',  ( 40.00000000000000000, 0.000000000000000000, 1000.000000000000000 ) ) ;
#41 = CALENDAR_DATE ( 2024, 13, 8 ) ;
#42 = DIRECTION ( 'NONE',  ( -0.000000000000000000, -0.000000000000000000, -1.000000000000000000 ) ) ;
#43 = EDGE_CURVE ( 'NONE', #267, #55, #229, .T. ) ;
#44 = ORIENTED_EDGE ( 'NONE', *, *, #177, .T. ) ;
#45 = ADVANCED_FACE ( 'NONE', ( #27 ), #24, .F. ) ;
#46 = DATE_AND_TIME ( #167, #221 ) ;
#47 = EDGE_CURVE ( 'NONE', #92, #267, #50, .T. ) ;
#48 = APPROVAL ( #78, 'UNSPECIFIED' ) ;
#49 = APPROVAL_ROLE ( '' ) ;
#50 = LINE ( 'NONE', #103, #128 ) ;
#51 = VECTOR ( 'NONE', #299, 1000.000000000000000 ) ;
#52 = PLANE ( 'NONE',  #156 ) ;
#53 = CC_DESIGN_PERSON_AND_ORGANIZATION_ASSIGNMENT ( #135, #89, ( #79 ) ) ;
#54 = PERSON_AND_ORGANIZATION ( #60, #199 ) ;
#55 = VERTEX_POINT ( 'NONE', #85 ) ;
#56 = ORIENTED_EDGE ( 'NONE', *, *, #145, .F. ) ;
#57 = CC_DESIGN_SECURITY_CLASSIFICATION ( #195, ( #251 ) ) ;
#58 = APPROVAL ( #38, 'UNSPECIFIED' ) ;
#59 = DIRECTION ( 'NONE',  ( 0.000000000000000000, 0.000000000000000000, 1.000000000000000000 ) ) ;
#60 = PERSON ( 'UNSPECIFIED', 'UNSPECIFIED', 'UNSPECIFIED', ('UNSPECIFIED'), ('UNSPECIFIED'), ('UNSPECIFIED') ) ;
#61 = LINE ( 'NONE', #115, #216 ) ;
#62 = PERSON_AND_ORGANIZATION_ROLE ( 'classification_officer' ) ;
#63 = CARTESIAN_POINT ( 'NONE',  ( 0.000000000000000000, 0.000000000000000000, 0.000000000000000000 ) ) ;
#64 = AXIS2_PLACEMENT_3D ( 'NONE', #17, #155, #117 ) ;
#65 = ORIENTED_EDGE ( 'NONE', *, *, #184, .T. ) ;
#66 = DIRECTION ( 'NONE',  ( -0.000000000000000000, -0.000000000000000000, -1.000000000000000000 ) ) ;
#67 = ADVANCED_FACE ( 'NONE', ( #106 ), #87, .F. ) ;
#68 = ORIENTED_EDGE ( 'NONE', *, *, #287, .F. ) ;
#69 = DIRECTION ( 'NONE',  ( 0.000000000000000000, 1.000000000000000000, 0.000000000000000000 ) ) ;
#70 = CALENDAR_DATE ( 2024, 13, 8 ) ;
#71 = VERTEX_POINT ( 'NONE', #105 ) ;
#72 = DIRECTION ( 'NONE',  ( 1.000000000000000000, 0.000000000000000000, -0.000000000000000000 ) ) ;
#73 = AXIS2_PLACEMENT_3D ( 'NONE', #172, #5, #131 ) ;
#74 = VERTEX_POINT ( 'NONE', #86 ) ;
#75 = ADVANCED_FACE ( 'NONE', ( #148 ), #171, .T. ) ;
#76 = DATE_AND_TIME ( #133, #104 ) ;
#77 = VECTOR ( 'NONE', #250, 1000.000000000000000 ) ;
#78 = APPROVAL_STATUS ( 'not_yet_approved' ) ;
#79 = PRODUCT_DEFINITION ( 'UNKNOWN', '', #251, #169 ) ;
#80 = APPLICATION_PROTOCOL_DEFINITION ( 'international standard', 'config_control_design', 1994, #36 ) ;
#81 = ORIENTED_EDGE ( 'NONE', *, *, #248, .T. ) ;
#82 = DIRECTION ( 'NONE',  ( 0.000000000000000000, 0.000000000000000000, 1.000000000000000000 ) ) ;
#83 = ORIENTED_EDGE ( 'NONE', *, *, #163, .F. ) ;
#84 = VECTOR ( 'NONE', #182, 1000.000000000000000 ) ;
#85 = CARTESIAN_POINT ( 'NONE',  ( -2.449293598294708880E-16, 40.00000000000000000, 1000.000000000000000 ) ) ;
#86 = CARTESIAN_POINT ( 'NONE',  ( 40.00000000000000000, 3.000000000000000000, 1000.000000000000000 ) ) ;
#87 = PLANE ( 'NONE',  #73 ) ;
#88 = CLOSED_SHELL ( 'NONE', ( #2, #13, #113, #189, #45, #67, #75, #283 ) ) ;
#89 = PERSON_AND_ORGANIZATION_ROLE ( 'creator' ) ;
#90 = LINE ( 'NONE', #153, #157 ) ;
#91 = PERSON_AND_ORGANIZATION ( #60, #199 ) ;
#92 = VERTEX_POINT ( 'NONE', #152 ) ;
#93 = LINE ( 'NONE', #63, #165 ) ;
#94 = CARTESIAN_POINT ( 'NONE',  ( 2.999999999999999556, 40.00000000000000000, 0.000000000000000000 ) ) ;
#95 =( GEOMETRIC_REPRESENTATION_CONTEXT ( 3 ) GLOBAL_UNCERTAINTY_ASSIGNED_CONTEXT ( ( #192 ) ) GLOBAL_UNIT_ASSIGNED_CONTEXT ( ( #112, #217, #10 ) ) REPRESENTATION_CONTEXT ( 'NONE', 'WORKASPACE' ) );
#96 = DIRECTION ( 'NONE',  ( 0.000000000000000000, 1.000000000000000000, 0.000000000000000000 ) ) ;
#97 = DIRECTION ( 'NONE',  ( 0.000000000000000000, 0.000000000000000000, 1.000000000000000000 ) ) ;
#98 = ORIENTED_EDGE ( 'NONE', *, *, #47, .F. ) ;
#99 = VECTOR ( 'NONE', #69, 1000.000000000000000 ) ;
#100 = DIRECTION ( 'NONE',  ( 0.000000000000000000, 1.000000000000000000, 0.000000000000000000 ) ) ;
#101 = DIRECTION ( 'NONE',  ( 1.000000000000000000, 0.000000000000000000, -0.000000000000000000 ) ) ;
#102 = VECTOR ( 'NONE', #291, 1000.000000000000000 ) ;
#103 = CARTESIAN_POINT ( 'NONE',  ( 3.000000000000002220, 2.999999999999995559, 1000.000000000000000 ) ) ;
#104 = LOCAL_TIME ( 10, 0, 2.000000000000000000, #33 ) ;
#105 = CARTESIAN_POINT ( 'NONE',  ( 40.00000000000000000, 3.000000000000000000, 0.000000000000000000 ) ) ;
#106 = FACE_OUTER_BOUND ( 'NONE', #166, .T. ) ;
#107 = EDGE_CURVE ( 'NONE', #243, #263, #170, .T. ) ;
#108 = PERSON_AND_ORGANIZATION_ROLE ( 'creator' ) ;
#109 = CARTESIAN_POINT ( 'NONE',  ( 40.00000000000000000, 3.000000000000000000, 1000.000000000000000 ) ) ;
#110 = AXIS2_PLACEMENT_3D ( 'NONE', #196, #82, #174 ) ;
#111 = ORIENTED_EDGE ( 'NONE', *, *, #248, .F. ) ;
#112 =( LENGTH_UNIT ( ) NAMED_UNIT ( * ) SI_UNIT ( .MILLI., .METRE. ) );
#113 = ADVANCED_FACE ( 'NONE', ( #295 ), #146, .F. ) ;
#114 = ORIENTED_EDGE ( 'NONE', *, *, #39, .T. ) ;
#115 = CARTESIAN_POINT ( 'NONE',  ( 3.000000000000002220, 2.999999999999995559, 1000.000000000000000 ) ) ;
#116 = ORIENTED_EDGE ( 'NONE', *, *, #163, .T. ) ;
#117 = DIRECTION ( 'NONE',  ( 0.000000000000000000, 0.000000000000000000, 1.000000000000000000 ) ) ;
#118 = CARTESIAN_POINT ( 'NONE',  ( 3.000000000000002220, 2.999999999999995559, 0.000000000000000000 ) ) ;
#119 = EDGE_CURVE ( 'NONE', #55, #19, #136, .T. ) ;
#120 = VERTEX_POINT ( 'NONE', #118 ) ;
#121 = VECTOR ( 'NONE', #96, 1000.000000000000000 ) ;
#122 = AXIS2_PLACEMENT_3D ( 'NONE', #273, #9, #252 ) ;
#123 = APPROVAL_PERSON_ORGANIZATION ( #289, #290, #49 ) ;
#124 = CC_DESIGN_PERSON_AND_ORGANIZATION_ASSIGNMENT ( #302, #108, ( #251 ) ) ;
#125 = ORIENTED_EDGE ( 'NONE', *, *, #184, .F. ) ;
#126 = MECHANICAL_CONTEXT ( 'NONE', #36, 'mechanical' ) ;
#127 = LINE ( 'NONE', #130, #102 ) ;
#128 = VECTOR ( 'NONE', #25, 1000.000000000000000 ) ;
#129 = ORIENTED_EDGE ( 'NONE', *, *, #287, .T. ) ;
#130 = CARTESIAN_POINT ( 'NONE',  ( 2.999999999999999556, 40.00000000000000000, 1000.000000000000000 ) ) ;
#131 = DIRECTION ( 'NONE',  ( 7.032662740446513982E-17, -1.000000000000000000, 0.000000000000000000 ) ) ;
#132 = AXIS2_PLACEMENT_3D ( 'NONE', #175, #100, #235 ) ;
#133 = CALENDAR_DATE ( 2024, 13, 8 ) ;
#134 = CARTESIAN_POINT ( 'NONE',  ( 0.000000000000000000, 0.000000000000000000, 0.000000000000000000 ) ) ;
#135 = PERSON_AND_ORGANIZATION ( #60, #199 ) ;
#136 = LINE ( 'NONE', #276, #28 ) ;
#137 = APPLICATION_CONTEXT ( 'configuration controlled 3d designs of mechanical parts and assemblies' ) ;
#138 = FACE_OUTER_BOUND ( 'NONE', #185, .T. ) ;
#139 = APPROVAL_DATE_TIME ( #274, #58 ) ;
#140 = ORIENTED_EDGE ( 'NONE', *, *, #145, .T. ) ;
#141 = CARTESIAN_POINT ( 'NONE',  ( 0.000000000000000000, 0.000000000000000000, 1000.000000000000000 ) ) ;
#142 = EDGE_LOOP ( 'NONE', ( #114, #215, #303, #140 ) ) ;
#143 = CC_DESIGN_PERSON_AND_ORGANIZATION_ASSIGNMENT ( #205, #256, ( #251 ) ) ;
#144 = AXIS2_PLACEMENT_3D ( 'NONE', #21, #97, #72 ) ;
#145 = EDGE_CURVE ( 'NONE', #74, #71, #180, .T. ) ;
#146 = PLANE ( 'NONE',  #132 ) ;
#147 = CARTESIAN_POINT ( 'NONE',  ( 2.999999999999999556, 40.00000000000000000, 1000.000000000000000 ) ) ;
#148 = FACE_OUTER_BOUND ( 'NONE', #197, .T. ) ;
#149 = EDGE_CURVE ( 'NONE', #55, #243, #18, .T. ) ;
#150 = ORIENTED_EDGE ( 'NONE', *, *, #149, .T. ) ;
#151 = LOCAL_TIME ( 10, 0, 2.000000000000000000, #211 ) ;
#152 = CARTESIAN_POINT ( 'NONE',  ( 3.000000000000002220, 2.999999999999995559, 1000.000000000000000 ) ) ;
#153 = CARTESIAN_POINT ( 'NONE',  ( 3.000000000000002220, 2.999999999999995559, 0.000000000000000000 ) ) ;
#154 = EDGE_LOOP ( 'NONE', ( #65, #83, #181, #286 ) ) ;
#155 = DIRECTION ( 'NONE',  ( -1.000000000000000000, 0.000000000000000000, 0.000000000000000000 ) ) ;
#156 = AXIS2_PLACEMENT_3D ( 'NONE', #203, #198, #29 ) ;
#157 = VECTOR ( 'NONE', #179, 1000.000000000000000 ) ;
#158 = ORIENTED_EDGE ( 'NONE', *, *, #47, .T. ) ;
#159 = CARTESIAN_POINT ( 'NONE',  ( -2.449293598294708880E-16, 40.00000000000000000, 0.000000000000000000 ) ) ;
#160 = APPROVAL_DATE_TIME ( #260, #290 ) ;
#161 = ORIENTED_EDGE ( 'NONE', *, *, #119, .T. ) ;
#162 = LINE ( 'NONE', #212, #51 ) ;
#163 = EDGE_CURVE ( 'NONE', #263, #257, #234, .T. ) ;
#164 = CARTESIAN_POINT ( 'NONE',  ( -2.449293598294708880E-16, 40.00000000000000000, 1000.000000000000000 ) ) ;
#165 = VECTOR ( 'NONE', #285, 1000.000000000000000 ) ;
#166 = EDGE_LOOP ( 'NONE', ( #129, #233, #98, #202 ) ) ;
#167 = CALENDAR_DATE ( 2024, 13, 8 ) ;
#168 = PRODUCT ( 'ALF-CC4040-3', 'ALF-CC4040-3', '', ( #126 ) ) ;
#169 = DESIGN_CONTEXT ( 'detailed design', #137, 'design' ) ;
#170 = LINE ( 'NONE', #269, #77 ) ;
#171 = PLANE ( 'NONE',  #194 ) ;
#172 = CARTESIAN_POINT ( 'NONE',  ( 3.000000000000002220, 2.999999999999995559, 1000.000000000000000 ) ) ;
#173 = VERTEX_POINT ( 'NONE', #134 ) ;
#174 = DIRECTION ( 'NONE',  ( 1.000000000000000000, 0.000000000000000000, 0.000000000000000000 ) ) ;
#175 = CARTESIAN_POINT ( 'NONE',  ( 0.000000000000000000, 0.000000000000000000, 1000.000000000000000 ) ) ;
#176 = SECURITY_CLASSIFICATION_LEVEL ( 'unclassified' ) ;
#177 = EDGE_CURVE ( 'NONE', #257, #71, #1, .T. ) ;
#178 = EDGE_LOOP ( 'NONE', ( #213, #275, #183, #161 ) ) ;
#179 = DIRECTION ( 'NONE',  ( -7.032662740446513982E-17, 1.000000000000000000, 0.000000000000000000 ) ) ;
#180 = LINE ( 'NONE', #232, #288 ) ;
#181 = ORIENTED_EDGE ( 'NONE', *, *, #107, .F. ) ;
#182 = DIRECTION ( 'NONE',  ( -1.000000000000000000, 0.000000000000000000, 0.000000000000000000 ) ) ;
#183 = ORIENTED_EDGE ( 'NONE', *, *, #149, .F. ) ;
#184 = EDGE_CURVE ( 'NONE', #173, #257, #93, .T. ) ;
#185 = EDGE_LOOP ( 'NONE', ( #4, #68, #15, #7, #125, #300 ) ) ;
#186 = LINE ( 'NONE', #94, #84 ) ;
#187 = EDGE_LOOP ( 'NONE', ( #32, #270, #208, #249 ) ) ;
#188 = ADVANCED_BREP_SHAPE_REPRESENTATION ( 'ALF-CC4040-3', ( #239, #110 ), #95 ) ;
#189 = ADVANCED_FACE ( 'NONE', ( #282 ), #266, .F. ) ;
#190 = LOCAL_TIME ( 10, 0, 2.000000000000000000, #224 ) ;
#191 = EDGE_CURVE ( 'NONE', #92, #120, #61, .T. ) ;
#192 = UNCERTAINTY_MEASURE_WITH_UNIT (LENGTH_MEASURE( 1.000000000000000082E-05 ), #112, 'distance_accuracy_value', 'NONE');
#193 = APPROVAL_ROLE ( '' ) ;
#194 = AXIS2_PLACEMENT_3D ( 'NONE', #254, #59, #101 ) ;
#195 = SECURITY_CLASSIFICATION ( '', '', #176 ) ;
#196 = CARTESIAN_POINT ( 'NONE',  ( 0.000000000000000000, 0.000000000000000000, 0.000000000000000000 ) ) ;
#197 = EDGE_LOOP ( 'NONE', ( #22, #150, #230, #81, #206, #158 ) ) ;
#198 = DIRECTION ( 'NONE',  ( 1.000000000000000000, 6.123233995736771737E-18, -0.000000000000000000 ) ) ;
#199 = ORGANIZATION ( 'UNSPECIFIED', 'UNSPECIFIED', '' ) ;
#200 = EDGE_CURVE ( 'NONE', #243, #173, #162, .T. ) ;
#201 = VERTEX_POINT ( 'NONE', #261 ) ;
#202 = ORIENTED_EDGE ( 'NONE', *, *, #191, .T. ) ;
#203 = CARTESIAN_POINT ( 'NONE',  ( -2.449293598294708880E-16, 40.00000000000000000, 1000.000000000000000 ) ) ;
#204 = CC_DESIGN_PERSON_AND_ORGANIZATION_ASSIGNMENT ( #91, #62, ( #195 ) ) ;
#205 = PERSON_AND_ORGANIZATION ( #60, #199 ) ;
#206 = ORIENTED_EDGE ( 'NONE', *, *, #284, .T. ) ;
#207 = DIRECTION ( 'NONE',  ( 6.123233995736771737E-18, -1.000000000000000000, 0.000000000000000000 ) ) ;
#208 = ORIENTED_EDGE ( 'NONE', *, *, #43, .F. ) ;
#209 = SHAPE_DEFINITION_REPRESENTATION ( #241, #188 ) ;
#210 = CARTESIAN_POINT ( 'NONE',  ( 40.00000000000000000, 0.000000000000000000, 0.000000000000000000 ) ) ;
#211 = COORDINATED_UNIVERSAL_TIME_OFFSET ( 3, 0, .AHEAD. ) ;
#212 = CARTESIAN_POINT ( 'NONE',  ( 0.000000000000000000, 0.000000000000000000, 1000.000000000000000 ) ) ;
#213 = ORIENTED_EDGE ( 'NONE', *, *, #242, .T. ) ;
#214 = DIRECTION ( 'NONE',  ( 6.123233995736771737E-18, -1.000000000000000000, 0.000000000000000000 ) ) ;
#215 = ORIENTED_EDGE ( 'NONE', *, *, #191, .F. ) ;
#216 = VECTOR ( 'NONE', #35, 1000.000000000000000 ) ;
#217 =( NAMED_UNIT ( * ) PLANE_ANGLE_UNIT ( ) SI_UNIT ( $, .RADIAN. ) );
#218 = COORDINATED_UNIVERSAL_TIME_OFFSET ( 3, 0, .AHEAD. ) ;
#219 = APPROVAL_DATE_TIME ( #46, #48 ) ;
#220 = CC_DESIGN_PERSON_AND_ORGANIZATION_ASSIGNMENT ( #54, #253, ( #168 ) ) ;
#221 = LOCAL_TIME ( 10, 0, 2.000000000000000000, #218 ) ;
#222 = APPLICATION_PROTOCOL_DEFINITION ( 'international standard', 'config_control_design', 1994, #137 ) ;
#223 = CARTESIAN_POINT ( 'NONE',  ( -2.449293598294708880E-16, 40.00000000000000000, 0.000000000000000000 ) ) ;
#224 = COORDINATED_UNIVERSAL_TIME_OFFSET ( 3, 0, .AHEAD. ) ;
#225 = PRODUCT_RELATED_PRODUCT_CATEGORY ( 'detail', '', ( #168 ) ) ;
#226 = LINE ( 'NONE', #228, #23 ) ;
#227 = AXIS2_PLACEMENT_3D ( 'NONE', #30, #11, #296 ) ;
#228 = CARTESIAN_POINT ( 'NONE',  ( 40.00000000000000000, 3.000000000000000000, 0.000000000000000000 ) ) ;
#229 = LINE ( 'NONE', #147, #279 ) ;
#230 = ORIENTED_EDGE ( 'NONE', *, *, #107, .T. ) ;
#231 = COORDINATED_UNIVERSAL_TIME_OFFSET ( 3, 0, .AHEAD. ) ;
#232 = CARTESIAN_POINT ( 'NONE',  ( 40.00000000000000000, 3.000000000000000000, 1000.000000000000000 ) ) ;
#233 = ORIENTED_EDGE ( 'NONE', *, *, #31, .F. ) ;
#234 = LINE ( 'NONE', #278, #246 ) ;
#235 = DIRECTION ( 'NONE',  ( 0.000000000000000000, -0.000000000000000000, 1.000000000000000000 ) ) ;
#236 = APPROVAL_ROLE ( '' ) ;
#237 = EDGE_CURVE ( 'NONE', #201, #19, #186, .T. ) ;
#238 = PLANE ( 'NONE',  #144 ) ;
#239 = MANIFOLD_SOLID_BREP ( 'Áîáûøêà-Âûòÿíóòü1', #88 ) ;
#240 = APPROVAL_PERSON_ORGANIZATION ( #14, #58, #236 ) ;
#241 = PRODUCT_DEFINITION_SHAPE ( 'NONE', 'NONE',  #79 ) ;
#242 = EDGE_CURVE ( 'NONE', #19, #173, #255, .T. ) ;
#243 = VERTEX_POINT ( 'NONE', #141 ) ;
#244 = DATE_TIME_ROLE ( 'classification_date' ) ;
#245 = CC_DESIGN_APPROVAL ( #58, ( #251 ) ) ;
#246 = VECTOR ( 'NONE', #42, 1000.000000000000000 ) ;
#247 = PLANE ( 'NONE',  #122 ) ;
#248 = EDGE_CURVE ( 'NONE', #263, #74, #37, .T. ) ;
#249 = ORIENTED_EDGE ( 'NONE', *, *, #31, .T. ) ;
#250 = DIRECTION ( 'NONE',  ( 1.000000000000000000, 0.000000000000000000, 0.000000000000000000 ) ) ;
#251 = PRODUCT_DEFINITION_FORMATION_WITH_SPECIFIED_SOURCE ( 'ANY', '', #168, .NOT_KNOWN. ) ;
#252 = DIRECTION ( 'NONE',  ( 0.000000000000000000, -0.000000000000000000, -1.000000000000000000 ) ) ;
#253 = PERSON_AND_ORGANIZATION_ROLE ( 'design_owner' ) ;
#254 = CARTESIAN_POINT ( 'NONE',  ( 0.000000000000000000, 0.000000000000000000, 1000.000000000000000 ) ) ;
#255 = LINE ( 'NONE', #159, #293 ) ;
#256 = PERSON_AND_ORGANIZATION_ROLE ( 'design_supplier' ) ;
#257 = VERTEX_POINT ( 'NONE', #264 ) ;
#258 = VECTOR ( 'NONE', #214, 1000.000000000000000 ) ;
#259 = DIRECTION ( 'NONE',  ( -0.000000000000000000, -0.000000000000000000, -1.000000000000000000 ) ) ;
#260 = DATE_AND_TIME ( #6, #190 ) ;
#261 = CARTESIAN_POINT ( 'NONE',  ( 2.999999999999999556, 40.00000000000000000, 0.000000000000000000 ) ) ;
#262 = DATE_AND_TIME ( #70, #151 ) ;
#263 = VERTEX_POINT ( 'NONE', #40 ) ;
#264 = CARTESIAN_POINT ( 'NONE',  ( 40.00000000000000000, 0.000000000000000000, 0.000000000000000000 ) ) ;
#265 = CC_DESIGN_DATE_AND_TIME_ASSIGNMENT ( #262, #277, ( #79 ) ) ;
#266 = PLANE ( 'NONE',  #64 ) ;
#267 = VERTEX_POINT ( 'NONE', #298 ) ;
#268 = APPROVAL_STATUS ( 'not_yet_approved' ) ;
#269 = CARTESIAN_POINT ( 'NONE',  ( 0.000000000000000000, 0.000000000000000000, 1000.000000000000000 ) ) ;
#270 = ORIENTED_EDGE ( 'NONE', *, *, #119, .F. ) ;
#271 = DIRECTION ( 'NONE',  ( -1.000000000000000000, -1.172110456741085828E-16, 0.000000000000000000 ) ) ;
#272 = FACE_OUTER_BOUND ( 'NONE', #178, .T. ) ;
#273 = CARTESIAN_POINT ( 'NONE',  ( 2.999999999999999556, 40.00000000000000000, 1000.000000000000000 ) ) ;
#274 = DATE_AND_TIME ( #41, #8 ) ;
#275 = ORIENTED_EDGE ( 'NONE', *, *, #200, .F. ) ;
#276 = CARTESIAN_POINT ( 'NONE',  ( -2.449293598294708880E-16, 40.00000000000000000, 1000.000000000000000 ) ) ;
#277 = DATE_TIME_ROLE ( 'creation_date' ) ;
#278 = CARTESIAN_POINT ( 'NONE',  ( 40.00000000000000000, 0.000000000000000000, 1000.000000000000000 ) ) ;
#279 = VECTOR ( 'NONE', #292, 1000.000000000000000 ) ;
#280 = APPROVAL_PERSON_ORGANIZATION ( #3, #48, #193 ) ;
#281 = EDGE_LOOP ( 'NONE', ( #44, #56, #111, #116 ) ) ;
#282 = FACE_OUTER_BOUND ( 'NONE', #281, .T. ) ;
#283 = ADVANCED_FACE ( 'NONE', ( #138 ), #238, .F. ) ;
#284 = EDGE_CURVE ( 'NONE', #74, #92, #12, .T. ) ;
#285 = DIRECTION ( 'NONE',  ( 1.000000000000000000, 0.000000000000000000, 0.000000000000000000 ) ) ;
#286 = ORIENTED_EDGE ( 'NONE', *, *, #200, .T. ) ;
#287 = EDGE_CURVE ( 'NONE', #120, #201, #90, .T. ) ;
#288 = VECTOR ( 'NONE', #66, 1000.000000000000000 ) ;
#289 = PERSON_AND_ORGANIZATION ( #60, #199 ) ;
#290 = APPROVAL ( #268, 'UNSPECIFIED' ) ;
#291 = DIRECTION ( 'NONE',  ( -0.000000000000000000, -0.000000000000000000, -1.000000000000000000 ) ) ;
#292 = DIRECTION ( 'NONE',  ( -1.000000000000000000, 0.000000000000000000, 0.000000000000000000 ) ) ;
#293 = VECTOR ( 'NONE', #207, 1000.000000000000000 ) ;
#294 = FACE_OUTER_BOUND ( 'NONE', #187, .T. ) ;
#295 = FACE_OUTER_BOUND ( 'NONE', #154, .T. ) ;
#296 = DIRECTION ( 'NONE',  ( 1.000000000000000000, 1.172110456741085828E-16, 0.000000000000000000 ) ) ;
#297 = CC_DESIGN_APPROVAL ( #48, ( #195 ) ) ;
#298 = CARTESIAN_POINT ( 'NONE',  ( 2.999999999999999556, 40.00000000000000000, 1000.000000000000000 ) ) ;
#299 = DIRECTION ( 'NONE',  ( -0.000000000000000000, -0.000000000000000000, -1.000000000000000000 ) ) ;
#300 = ORIENTED_EDGE ( 'NONE', *, *, #242, .F. ) ;
#301 = CARTESIAN_POINT ( 'NONE',  ( 40.00000000000000000, 0.000000000000000000, 1000.000000000000000 ) ) ;
#302 = PERSON_AND_ORGANIZATION ( #60, #199 ) ;
#303 = ORIENTED_EDGE ( 'NONE', *, *, #284, .F. ) ;
ENDSEC;
END-ISO-10303-21;
