ISO-10303-21;
HEADER;
FILE_DESCRIPTION (( 'STEP AP203' ),
    '1' );
FILE_NAME ('ALF-CC3030-3.step',
    '2024-08-13T06:59:54',
    ( '' ),
    ( '' ),
    'SwSTEP 2.0',
    'SolidWorks 2022',
    '' );
FILE_SCHEMA (( 'CONFIG_CONTROL_DESIGN' ));
ENDSEC;

DATA;
#1 = EDGE_CURVE ( 'NONE', #73, #167, #88, .T. ) ;
#2 = CARTESIAN_POINT ( 'NONE',  ( 30.00000000000000000, 3.000000000000000000, 1000.000000000000000 ) ) ;
#3 = PRODUCT_DEFINITION_SHAPE ( 'NONE', 'NONE',  #183 ) ;
#4 = VECTOR ( 'NONE', #43, 1000.000000000000000 ) ;
#5 = EDGE_CURVE ( 'NONE', #298, #271, #228, .T. ) ;
#6 = PERSON_AND_ORGANIZATION ( #25, #9 ) ;
#7 = LINE ( 'NONE', #174, #135 ) ;
#8 = CC_DESIGN_PERSON_AND_ORGANIZATION_ASSIGNMENT ( #103, #112, ( #183 ) ) ;
#9 = ORGANIZATION ( 'UNSPECIFIED', 'UNSPECIFIED', '' ) ;
#10 = ORIENTED_EDGE ( 'NONE', *, *, #278, .T. ) ;
#11 = DIRECTION ( 'NONE',  ( 0.000000000000000000, 0.000000000000000000, 1.000000000000000000 ) ) ;
#12 = DIRECTION ( 'NONE',  ( -3.212450881438531131E-17, -1.000000000000000000, 0.000000000000000000 ) ) ;
#13 = SECURITY_CLASSIFICATION_LEVEL ( 'unclassified' ) ;
#14 = CARTESIAN_POINT ( 'NONE',  ( 0.000000000000000000, 0.000000000000000000, 1000.000000000000000 ) ) ;
#15 = EDGE_LOOP ( 'NONE', ( #133, #297, #184, #163 ) ) ;
#16 = VECTOR ( 'NONE', #192, 1000.000000000000000 ) ;
#17 = DIRECTION ( 'NONE',  ( 0.000000000000000000, -1.000000000000000000, 0.000000000000000000 ) ) ;
#18 = DIRECTION ( 'NONE',  ( 3.212450881438531131E-17, 1.000000000000000000, 0.000000000000000000 ) ) ;
#19 = ORIENTED_EDGE ( 'NONE', *, *, #60, .F. ) ;
#20 = CC_DESIGN_APPROVAL ( #259, ( #183 ) ) ;
#21 = DIRECTION ( 'NONE',  ( 1.000000000000000000, 0.000000000000000000, 0.000000000000000000 ) ) ;
#22 = VERTEX_POINT ( 'NONE', #277 ) ;
#23 = APPROVAL_PERSON_ORGANIZATION ( #124, #56, #193 ) ;
#24 = ORIENTED_EDGE ( 'NONE', *, *, #75, .F. ) ;
#25 = PERSON ( 'UNSPECIFIED', 'UNSPECIFIED', 'UNSPECIFIED', ('UNSPECIFIED'), ('UNSPECIFIED'), ('UNSPECIFIED') ) ;
#26 = VECTOR ( 'NONE', #125, 1000.000000000000000 ) ;
#27 = COORDINATED_UNIVERSAL_TIME_OFFSET ( 3, 0, .AHEAD. ) ;
#28 = CC_DESIGN_PERSON_AND_ORGANIZATION_ASSIGNMENT ( #220, #102, ( #95 ) ) ;
#29 = CARTESIAN_POINT ( 'NONE',  ( 30.00000000000000000, 0.000000000000000000, 1000.000000000000000 ) ) ;
#30 =( LENGTH_UNIT ( ) NAMED_UNIT ( * ) SI_UNIT ( .MILLI., .METRE. ) );
#31 = COORDINATED_UNIVERSAL_TIME_OFFSET ( 3, 0, .AHEAD. ) ;
#32 = FACE_OUTER_BOUND ( 'NONE', #222, .T. ) ;
#33 = AXIS2_PLACEMENT_3D ( 'NONE', #151, #61, #12 ) ;
#34 = CARTESIAN_POINT ( 'NONE',  ( 0.000000000000000000, 0.000000000000000000, 0.000000000000000000 ) ) ;
#35 = EDGE_CURVE ( 'NONE', #227, #241, #303, .T. ) ;
#36 = EDGE_LOOP ( 'NONE', ( #190, #140, #24, #235 ) ) ;
#37 = CARTESIAN_POINT ( 'NONE',  ( 30.00000000000000000, 0.000000000000000000, 1000.000000000000000 ) ) ;
#38 = DATE_TIME_ROLE ( 'creation_date' ) ;
#39 = CARTESIAN_POINT ( 'NONE',  ( 30.00000000000000000, 0.000000000000000000, 1000.000000000000000 ) ) ;
#40 = ORIENTED_EDGE ( 'NONE', *, *, #65, .T. ) ;
#41 = LOCAL_TIME ( 9, 59, 54.00000000000000000, #130 ) ;
#42 = ORIENTED_EDGE ( 'NONE', *, *, #89, .T. ) ;
#43 = DIRECTION ( 'NONE',  ( 0.000000000000000000, -1.000000000000000000, 0.000000000000000000 ) ) ;
#44 = VERTEX_POINT ( 'NONE', #115 ) ;
#45 = CARTESIAN_POINT ( 'NONE',  ( 30.00000000000000000, 0.000000000000000000, 0.000000000000000000 ) ) ;
#46 = ORIENTED_EDGE ( 'NONE', *, *, #5, .T. ) ;
#47 = ORIENTED_EDGE ( 'NONE', *, *, #236, .T. ) ;
#48 = DIRECTION ( 'NONE',  ( 1.000000000000000000, 0.000000000000000000, -0.000000000000000000 ) ) ;
#49 = LOCAL_TIME ( 9, 59, 54.00000000000000000, #292 ) ;
#50 = UNCERTAINTY_MEASURE_WITH_UNIT (LENGTH_MEASURE( 1.000000000000000082E-05 ), #30, 'distance_accuracy_value', 'NONE');
#51 = ADVANCED_FACE ( 'NONE', ( #209 ), #207, .F. ) ;
#52 = VERTEX_POINT ( 'NONE', #180 ) ;
#53 = EDGE_CURVE ( 'NONE', #52, #300, #69, .T. ) ;
#54 =( NAMED_UNIT ( * ) PLANE_ANGLE_UNIT ( ) SI_UNIT ( $, .RADIAN. ) );
#55 = EDGE_CURVE ( 'NONE', #271, #179, #279, .T. ) ;
#56 = APPROVAL ( #109, 'UNSPECIFIED' ) ;
#57 = CARTESIAN_POINT ( 'NONE',  ( 0.000000000000000000, 30.00000000000000000, 1000.000000000000000 ) ) ;
#58 = LINE ( 'NONE', #85, #166 ) ;
#59 = PLANE ( 'NONE',  #146 ) ;
#60 = EDGE_CURVE ( 'NONE', #22, #179, #116, .T. ) ;
#61 = DIRECTION ( 'NONE',  ( -1.000000000000000000, 3.212450881438531131E-17, 0.000000000000000000 ) ) ;
#62 = ORIENTED_EDGE ( 'NONE', *, *, #244, .T. ) ;
#63 = CARTESIAN_POINT ( 'NONE',  ( 30.00000000000000000, 3.000000000000000000, 1000.000000000000000 ) ) ;
#64 = ORIENTED_EDGE ( 'NONE', *, *, #230, .F. ) ;
#65 = EDGE_CURVE ( 'NONE', #300, #276, #253, .T. ) ;
#66 = CARTESIAN_POINT ( 'NONE',  ( 3.000000000000000000, 30.00000000000000000, 0.000000000000000000 ) ) ;
#67 = AXIS2_PLACEMENT_3D ( 'NONE', #272, #108, #129 ) ;
#68 = ORIENTED_EDGE ( 'NONE', *, *, #138, .F. ) ;
#69 = LINE ( 'NONE', #275, #107 ) ;
#70 = EDGE_LOOP ( 'NONE', ( #159, #249, #68, #173, #120, #226 ) ) ;
#71 = ADVANCED_FACE ( 'NONE', ( #143 ), #233, .T. ) ;
#72 = DIRECTION ( 'NONE',  ( 0.000000000000000000, 1.000000000000000000, 0.000000000000000000 ) ) ;
#73 = VERTEX_POINT ( 'NONE', #121 ) ;
#74 = AXIS2_PLACEMENT_3D ( 'NONE', #106, #177, #134 ) ;
#75 = EDGE_CURVE ( 'NONE', #241, #73, #212, .T. ) ;
#76 = PERSON_AND_ORGANIZATION ( #25, #9 ) ;
#77 = ADVANCED_FACE ( 'NONE', ( #188 ), #59, .F. ) ;
#78 = DIRECTION ( 'NONE',  ( 0.000000000000000000, 0.000000000000000000, 1.000000000000000000 ) ) ;
#79 = DIRECTION ( 'NONE',  ( -1.000000000000000000, 0.000000000000000000, 0.000000000000000000 ) ) ;
#80 = DIRECTION ( 'NONE',  ( 1.000000000000000000, 0.000000000000000000, -0.000000000000000000 ) ) ;
#81 = DIRECTION ( 'NONE',  ( 1.000000000000000000, 0.000000000000000000, 0.000000000000000000 ) ) ;
#82 = DATE_AND_TIME ( #176, #119 ) ;
#83 = CARTESIAN_POINT ( 'NONE',  ( 30.00000000000000000, 3.000000000000000000, 1000.000000000000000 ) ) ;
#84 = DATE_AND_TIME ( #266, #41 ) ;
#85 = CARTESIAN_POINT ( 'NONE',  ( 3.000000000000000000, 30.00000000000000000, 1000.000000000000000 ) ) ;
#86 = AXIS2_PLACEMENT_3D ( 'NONE', #34, #11, #246 ) ;
#87 = DIRECTION ( 'NONE',  ( -0.000000000000000000, -0.000000000000000000, -1.000000000000000000 ) ) ;
#88 = LINE ( 'NONE', #185, #195 ) ;
#89 = EDGE_CURVE ( 'NONE', #167, #22, #58, .T. ) ;
#90 = DIRECTION ( 'NONE',  ( 3.212450881438531131E-17, 1.000000000000000000, 0.000000000000000000 ) ) ;
#91 = ORIENTED_EDGE ( 'NONE', *, *, #236, .F. ) ;
#92 = CLOSED_SHELL ( 'NONE', ( #51, #77, #117, #98, #282, #149, #71, #114 ) ) ;
#93 = EDGE_LOOP ( 'NONE', ( #42, #217, #10, #258, #274, #231 ) ) ;
#94 = ORIENTED_EDGE ( 'NONE', *, *, #182, .T. ) ;
#95 = PRODUCT ( 'ALF-CC3030-3', 'ALF-CC3030-3', '', ( #269 ) ) ;
#96 = DIRECTION ( 'NONE',  ( -1.000000000000000000, -1.284980352575412699E-16, 0.000000000000000000 ) ) ;
#97 = VECTOR ( 'NONE', #216, 1000.000000000000000 ) ;
#98 = ADVANCED_FACE ( 'NONE', ( #198 ), #175, .F. ) ;
#99 = CALENDAR_DATE ( 2024, 13, 8 ) ;
#100 = ORIENTED_EDGE ( 'NONE', *, *, #278, .F. ) ;
#101 = PRODUCT_DEFINITION_FORMATION_WITH_SPECIFIED_SOURCE ( 'ANY', '', #95, .NOT_KNOWN. ) ;
#102 = PERSON_AND_ORGANIZATION_ROLE ( 'design_owner' ) ;
#103 = PERSON_AND_ORGANIZATION ( #25, #9 ) ;
#104 = FACE_OUTER_BOUND ( 'NONE', #155, .T. ) ;
#105 = APPROVAL_DATE_TIME ( #84, #214 ) ;
#106 = CARTESIAN_POINT ( 'NONE',  ( 30.00000000000000000, 3.000000000000000000, 1000.000000000000000 ) ) ;
#107 = VECTOR ( 'NONE', #21, 1000.000000000000000 ) ;
#108 = DIRECTION ( 'NONE',  ( 0.000000000000000000, 1.000000000000000000, 0.000000000000000000 ) ) ;
#109 = APPROVAL_STATUS ( 'not_yet_approved' ) ;
#110 = DIRECTION ( 'NONE',  ( -0.000000000000000000, -0.000000000000000000, -1.000000000000000000 ) ) ;
#111 = APPROVAL_ROLE ( '' ) ;
#112 = PERSON_AND_ORGANIZATION_ROLE ( 'creator' ) ;
#113 = LINE ( 'NONE', #238, #181 ) ;
#114 = ADVANCED_FACE ( 'NONE', ( #127 ), #200, .F. ) ;
#115 = CARTESIAN_POINT ( 'NONE',  ( 0.000000000000000000, 0.000000000000000000, 1000.000000000000000 ) ) ;
#116 = LINE ( 'NONE', #157, #257 ) ;
#117 = ADVANCED_FACE ( 'NONE', ( #104 ), #172, .F. ) ;
#118 = CARTESIAN_POINT ( 'NONE',  ( 2.999999999999999112, 2.999999999999996447, 0.000000000000000000 ) ) ;
#119 = LOCAL_TIME ( 9, 59, 54.00000000000000000, #31 ) ;
#120 = ORIENTED_EDGE ( 'NONE', *, *, #53, .F. ) ;
#121 = CARTESIAN_POINT ( 'NONE',  ( 2.999999999999999112, 2.999999999999996447, 1000.000000000000000 ) ) ;
#122 = AXIS2_PLACEMENT_3D ( 'NONE', #191, #78, #81 ) ;
#123 = VECTOR ( 'NONE', #96, 1000.000000000000000 ) ;
#124 = PERSON_AND_ORGANIZATION ( #25, #9 ) ;
#125 = DIRECTION ( 'NONE',  ( -1.000000000000000000, -1.284980352575412699E-16, 0.000000000000000000 ) ) ;
#126 = CALENDAR_DATE ( 2024, 13, 8 ) ;
#127 = FACE_OUTER_BOUND ( 'NONE', #70, .T. ) ;
#128 = DATE_TIME_ROLE ( 'classification_date' ) ;
#129 = DIRECTION ( 'NONE',  ( 0.000000000000000000, -0.000000000000000000, 1.000000000000000000 ) ) ;
#130 = COORDINATED_UNIVERSAL_TIME_OFFSET ( 3, 0, .AHEAD. ) ;
#131 = CARTESIAN_POINT ( 'NONE',  ( 0.000000000000000000, 0.000000000000000000, 1000.000000000000000 ) ) ;
#132 = APPROVAL_ROLE ( '' ) ;
#133 = ORIENTED_EDGE ( 'NONE', *, *, #299, .T. ) ;
#134 = DIRECTION ( 'NONE',  ( 1.000000000000000000, 1.284980352575412699E-16, 0.000000000000000000 ) ) ;
#135 = VECTOR ( 'NONE', #223, 1000.000000000000000 ) ;
#136 = CARTESIAN_POINT ( 'NONE',  ( 30.00000000000000000, 0.000000000000000000, 1000.000000000000000 ) ) ;
#137 = ORIENTED_EDGE ( 'NONE', *, *, #89, .F. ) ;
#138 = EDGE_CURVE ( 'NONE', #276, #298, #148, .T. ) ;
#139 = EDGE_LOOP ( 'NONE', ( #142, #19, #137, #94 ) ) ;
#140 = ORIENTED_EDGE ( 'NONE', *, *, #256, .F. ) ;
#141 = APPROVAL_PERSON_ORGANIZATION ( #6, #214, #132 ) ;
#142 = ORIENTED_EDGE ( 'NONE', *, *, #55, .T. ) ;
#143 = FACE_OUTER_BOUND ( 'NONE', #93, .T. ) ;
#144 = MANIFOLD_SOLID_BREP ( 'Áîáûøêà-Âûòÿíóòü1', #92 ) ;
#145 = VECTOR ( 'NONE', #186, 1000.000000000000000 ) ;
#146 = AXIS2_PLACEMENT_3D ( 'NONE', #57, #80, #293 ) ;
#147 = PERSON_AND_ORGANIZATION ( #25, #9 ) ;
#148 = LINE ( 'NONE', #286, #26 ) ;
#149 = ADVANCED_FACE ( 'NONE', ( #32 ), #224, .F. ) ;
#150 = PLANE ( 'NONE',  #74 ) ;
#151 = CARTESIAN_POINT ( 'NONE',  ( 2.999999999999999112, 2.999999999999996447, 1000.000000000000000 ) ) ;
#152 = DIRECTION ( 'NONE',  ( -0.000000000000000000, -0.000000000000000000, -1.000000000000000000 ) ) ;
#153 = PRODUCT_RELATED_PRODUCT_CATEGORY ( 'detail', '', ( #95 ) ) ;
#154 = FACE_OUTER_BOUND ( 'NONE', #36, .T. ) ;
#155 = EDGE_LOOP ( 'NONE', ( #247, #91, #100, #62 ) ) ;
#156 = LOCAL_TIME ( 9, 59, 54.00000000000000000, #294 ) ;
#157 = CARTESIAN_POINT ( 'NONE',  ( 0.000000000000000000, 30.00000000000000000, 1000.000000000000000 ) ) ;
#158 = SHAPE_DEFINITION_REPRESENTATION ( #3, #197 ) ;
#159 = ORIENTED_EDGE ( 'NONE', *, *, #55, .F. ) ;
#160 = CC_DESIGN_PERSON_AND_ORGANIZATION_ASSIGNMENT ( #264, #295, ( #101 ) ) ;
#161 = DIRECTION ( 'NONE',  ( -0.000000000000000000, -0.000000000000000000, -1.000000000000000000 ) ) ;
#162 = APPROVAL_DATE_TIME ( #204, #56 ) ;
#163 = ORIENTED_EDGE ( 'NONE', *, *, #60, .T. ) ;
#164 = AXIS2_PLACEMENT_3D ( 'NONE', #29, #270, #263 ) ;
#165 = CARTESIAN_POINT ( 'NONE',  ( 0.000000000000000000, 0.000000000000000000, 1000.000000000000000 ) ) ;
#166 = VECTOR ( 'NONE', #79, 1000.000000000000000 ) ;
#167 = VERTEX_POINT ( 'NONE', #291 ) ;
#168 = APPLICATION_PROTOCOL_DEFINITION ( 'international standard', 'config_control_design', 1994, #196 ) ;
#169 = CARTESIAN_POINT ( 'NONE',  ( 30.00000000000000000, 3.000000000000000000, 0.000000000000000000 ) ) ;
#170 = CC_DESIGN_APPROVAL ( #214, ( #101 ) ) ;
#171 = VECTOR ( 'NONE', #202, 1000.000000000000000 ) ;
#172 = PLANE ( 'NONE',  #67 ) ;
#173 = ORIENTED_EDGE ( 'NONE', *, *, #65, .F. ) ;
#174 = CARTESIAN_POINT ( 'NONE',  ( 2.999999999999999112, 2.999999999999996447, 1000.000000000000000 ) ) ;
#175 = PLANE ( 'NONE',  #164 ) ;
#176 = CALENDAR_DATE ( 2024, 13, 8 ) ;
#177 = DIRECTION ( 'NONE',  ( 1.284980352575412699E-16, -1.000000000000000000, 0.000000000000000000 ) ) ;
#178 = EDGE_CURVE ( 'NONE', #22, #44, #296, .T. ) ;
#179 = VERTEX_POINT ( 'NONE', #239 ) ;
#180 = CARTESIAN_POINT ( 'NONE',  ( 0.000000000000000000, 0.000000000000000000, 0.000000000000000000 ) ) ;
#181 = VECTOR ( 'NONE', #152, 1000.000000000000000 ) ;
#182 = EDGE_CURVE ( 'NONE', #167, #271, #113, .T. ) ;
#183 = PRODUCT_DEFINITION ( 'UNKNOWN', '', #101, #206 ) ;
#184 = ORIENTED_EDGE ( 'NONE', *, *, #178, .F. ) ;
#185 = CARTESIAN_POINT ( 'NONE',  ( 2.999999999999999112, 2.999999999999996447, 1000.000000000000000 ) ) ;
#186 = DIRECTION ( 'NONE',  ( 0.000000000000000000, 1.000000000000000000, 0.000000000000000000 ) ) ;
#187 = CC_DESIGN_PERSON_AND_ORGANIZATION_ASSIGNMENT ( #240, #261, ( #101 ) ) ;
#188 = FACE_OUTER_BOUND ( 'NONE', #15, .T. ) ;
#189 = VECTOR ( 'NONE', #18, 1000.000000000000000 ) ;
#190 = ORIENTED_EDGE ( 'NONE', *, *, #138, .T. ) ;
#191 = CARTESIAN_POINT ( 'NONE',  ( 0.000000000000000000, 0.000000000000000000, 0.000000000000000000 ) ) ;
#192 = DIRECTION ( 'NONE',  ( -0.000000000000000000, -0.000000000000000000, -1.000000000000000000 ) ) ;
#193 = APPROVAL_ROLE ( '' ) ;
#194 = CARTESIAN_POINT ( 'NONE',  ( 2.999999999999999112, 2.999999999999996447, 0.000000000000000000 ) ) ;
#195 = VECTOR ( 'NONE', #90, 1000.000000000000000 ) ;
#196 = APPLICATION_CONTEXT ( 'configuration controlled 3d designs of mechanical parts and assemblies' ) ;
#197 = ADVANCED_BREP_SHAPE_REPRESENTATION ( 'ALF-CC3030-3', ( #144, #122 ), #225 ) ;
#198 = FACE_OUTER_BOUND ( 'NONE', #283, .T. ) ;
#199 = DATE_AND_TIME ( #99, #156 ) ;
#200 = PLANE ( 'NONE',  #86 ) ;
#201 = DATE_AND_TIME ( #126, #288 ) ;
#202 = DIRECTION ( 'NONE',  ( 1.000000000000000000, 0.000000000000000000, 0.000000000000000000 ) ) ;
#203 = DIRECTION ( 'NONE',  ( -1.000000000000000000, 0.000000000000000000, 0.000000000000000000 ) ) ;
#204 = DATE_AND_TIME ( #287, #49 ) ;
#205 = DIRECTION ( 'NONE',  ( 0.000000000000000000, -0.000000000000000000, -1.000000000000000000 ) ) ;
#206 = DESIGN_CONTEXT ( 'detailed design', #248, 'design' ) ;
#207 = PLANE ( 'NONE',  #280 ) ;
#208 = VECTOR ( 'NONE', #110, 1000.000000000000000 ) ;
#209 = FACE_OUTER_BOUND ( 'NONE', #139, .T. ) ;
#210 = ORIENTED_EDGE ( 'NONE', *, *, #256, .T. ) ;
#211 = CC_DESIGN_DATE_AND_TIME_ASSIGNMENT ( #201, #128, ( #213 ) ) ;
#212 = LINE ( 'NONE', #2, #123 ) ;
#213 = SECURITY_CLASSIFICATION ( '', '', #13 ) ;
#214 = APPROVAL ( #290, 'UNSPECIFIED' ) ;
#215 =( NAMED_UNIT ( * ) SI_UNIT ( $, .STERADIAN. ) SOLID_ANGLE_UNIT ( ) );
#216 = DIRECTION ( 'NONE',  ( 0.000000000000000000, -1.000000000000000000, 0.000000000000000000 ) ) ;
#217 = ORIENTED_EDGE ( 'NONE', *, *, #178, .T. ) ;
#218 = LINE ( 'NONE', #63, #16 ) ;
#219 = CC_DESIGN_APPROVAL ( #56, ( #213 ) ) ;
#220 = PERSON_AND_ORGANIZATION ( #25, #9 ) ;
#221 = LINE ( 'NONE', #131, #229 ) ;
#222 = EDGE_LOOP ( 'NONE', ( #46, #232, #267, #210 ) ) ;
#223 = DIRECTION ( 'NONE',  ( -0.000000000000000000, -0.000000000000000000, -1.000000000000000000 ) ) ;
#224 = PLANE ( 'NONE',  #33 ) ;
#225 =( GEOMETRIC_REPRESENTATION_CONTEXT ( 3 ) GLOBAL_UNCERTAINTY_ASSIGNED_CONTEXT ( ( #50 ) ) GLOBAL_UNIT_ASSIGNED_CONTEXT ( ( #30, #54, #215 ) ) REPRESENTATION_CONTEXT ( 'NONE', 'WORKASPACE' ) );
#226 = ORIENTED_EDGE ( 'NONE', *, *, #299, .F. ) ;
#227 = VERTEX_POINT ( 'NONE', #37 ) ;
#228 = LINE ( 'NONE', #118, #189 ) ;
#229 = VECTOR ( 'NONE', #87, 1000.000000000000000 ) ;
#230 = EDGE_CURVE ( 'NONE', #241, #276, #218, .T. ) ;
#231 = ORIENTED_EDGE ( 'NONE', *, *, #1, .T. ) ;
#232 = ORIENTED_EDGE ( 'NONE', *, *, #182, .F. ) ;
#233 = PLANE ( 'NONE',  #301 ) ;
#234 = VECTOR ( 'NONE', #203, 1000.000000000000000 ) ;
#235 = ORIENTED_EDGE ( 'NONE', *, *, #230, .T. ) ;
#236 = EDGE_CURVE ( 'NONE', #227, #300, #242, .T. ) ;
#237 = PERSON_AND_ORGANIZATION_ROLE ( 'classification_officer' ) ;
#238 = CARTESIAN_POINT ( 'NONE',  ( 3.000000000000000000, 30.00000000000000000, 1000.000000000000000 ) ) ;
#239 = CARTESIAN_POINT ( 'NONE',  ( 0.000000000000000000, 30.00000000000000000, 0.000000000000000000 ) ) ;
#240 = PERSON_AND_ORGANIZATION ( #25, #9 ) ;
#241 = VERTEX_POINT ( 'NONE', #83 ) ;
#242 = LINE ( 'NONE', #39, #208 ) ;
#243 = VECTOR ( 'NONE', #72, 1000.000000000000000 ) ;
#244 = EDGE_CURVE ( 'NONE', #44, #52, #221, .T. ) ;
#245 = CARTESIAN_POINT ( 'NONE',  ( 0.000000000000000000, 30.00000000000000000, 1000.000000000000000 ) ) ;
#246 = DIRECTION ( 'NONE',  ( 1.000000000000000000, 0.000000000000000000, -0.000000000000000000 ) ) ;
#247 = ORIENTED_EDGE ( 'NONE', *, *, #53, .T. ) ;
#248 = APPLICATION_CONTEXT ( 'configuration controlled 3d designs of mechanical parts and assemblies' ) ;
#249 = ORIENTED_EDGE ( 'NONE', *, *, #5, .F. ) ;
#250 = LINE ( 'NONE', #289, #4 ) ;
#251 = APPROVAL_DATE_TIME ( #199, #259 ) ;
#252 = CC_DESIGN_PERSON_AND_ORGANIZATION_ASSIGNMENT ( #147, #237, ( #213 ) ) ;
#253 = LINE ( 'NONE', #281, #243 ) ;
#254 = ORIENTED_EDGE ( 'NONE', *, *, #35, .F. ) ;
#255 = DIRECTION ( 'NONE',  ( 0.000000000000000000, 0.000000000000000000, 1.000000000000000000 ) ) ;
#256 = EDGE_CURVE ( 'NONE', #73, #298, #7, .T. ) ;
#257 = VECTOR ( 'NONE', #161, 1000.000000000000000 ) ;
#258 = ORIENTED_EDGE ( 'NONE', *, *, #35, .T. ) ;
#259 = APPROVAL ( #260, 'UNSPECIFIED' ) ;
#260 = APPROVAL_STATUS ( 'not_yet_approved' ) ;
#261 = PERSON_AND_ORGANIZATION_ROLE ( 'design_supplier' ) ;
#262 = APPROVAL_PERSON_ORGANIZATION ( #76, #259, #111 ) ;
#263 = DIRECTION ( 'NONE',  ( 0.000000000000000000, 0.000000000000000000, 1.000000000000000000 ) ) ;
#264 = PERSON_AND_ORGANIZATION ( #25, #9 ) ;
#265 = LINE ( 'NONE', #14, #171 ) ;
#266 = CALENDAR_DATE ( 2024, 13, 8 ) ;
#267 = ORIENTED_EDGE ( 'NONE', *, *, #1, .F. ) ;
#268 = CARTESIAN_POINT ( 'NONE',  ( 3.000000000000000000, 30.00000000000000000, 0.000000000000000000 ) ) ;
#269 = MECHANICAL_CONTEXT ( 'NONE', #196, 'mechanical' ) ;
#270 = DIRECTION ( 'NONE',  ( -1.000000000000000000, 0.000000000000000000, 0.000000000000000000 ) ) ;
#271 = VERTEX_POINT ( 'NONE', #268 ) ;
#272 = CARTESIAN_POINT ( 'NONE',  ( 0.000000000000000000, 0.000000000000000000, 1000.000000000000000 ) ) ;
#273 = CC_DESIGN_DATE_AND_TIME_ASSIGNMENT ( #82, #38, ( #183 ) ) ;
#274 = ORIENTED_EDGE ( 'NONE', *, *, #75, .T. ) ;
#275 = CARTESIAN_POINT ( 'NONE',  ( 0.000000000000000000, 0.000000000000000000, 0.000000000000000000 ) ) ;
#276 = VERTEX_POINT ( 'NONE', #169 ) ;
#277 = CARTESIAN_POINT ( 'NONE',  ( 0.000000000000000000, 30.00000000000000000, 1000.000000000000000 ) ) ;
#278 = EDGE_CURVE ( 'NONE', #44, #227, #265, .T. ) ;
#279 = LINE ( 'NONE', #66, #234 ) ;
#280 = AXIS2_PLACEMENT_3D ( 'NONE', #302, #17, #205 ) ;
#281 = CARTESIAN_POINT ( 'NONE',  ( 30.00000000000000000, 0.000000000000000000, 0.000000000000000000 ) ) ;
#282 = ADVANCED_FACE ( 'NONE', ( #154 ), #150, .F. ) ;
#283 = EDGE_LOOP ( 'NONE', ( #40, #64, #254, #47 ) ) ;
#284 = CC_DESIGN_SECURITY_CLASSIFICATION ( #213, ( #101 ) ) ;
#285 = APPLICATION_PROTOCOL_DEFINITION ( 'international standard', 'config_control_design', 1994, #248 ) ;
#286 = CARTESIAN_POINT ( 'NONE',  ( 30.00000000000000000, 3.000000000000000000, 0.000000000000000000 ) ) ;
#287 = CALENDAR_DATE ( 2024, 13, 8 ) ;
#288 = LOCAL_TIME ( 9, 59, 54.00000000000000000, #27 ) ;
#289 = CARTESIAN_POINT ( 'NONE',  ( 0.000000000000000000, 30.00000000000000000, 0.000000000000000000 ) ) ;
#290 = APPROVAL_STATUS ( 'not_yet_approved' ) ;
#291 = CARTESIAN_POINT ( 'NONE',  ( 3.000000000000000000, 30.00000000000000000, 1000.000000000000000 ) ) ;
#292 = COORDINATED_UNIVERSAL_TIME_OFFSET ( 3, 0, .AHEAD. ) ;
#293 = DIRECTION ( 'NONE',  ( -0.000000000000000000, 0.000000000000000000, -1.000000000000000000 ) ) ;
#294 = COORDINATED_UNIVERSAL_TIME_OFFSET ( 3, 0, .AHEAD. ) ;
#295 = PERSON_AND_ORGANIZATION_ROLE ( 'creator' ) ;
#296 = LINE ( 'NONE', #245, #97 ) ;
#297 = ORIENTED_EDGE ( 'NONE', *, *, #244, .F. ) ;
#298 = VERTEX_POINT ( 'NONE', #194 ) ;
#299 = EDGE_CURVE ( 'NONE', #179, #52, #250, .T. ) ;
#300 = VERTEX_POINT ( 'NONE', #45 ) ;
#301 = AXIS2_PLACEMENT_3D ( 'NONE', #165, #255, #48 ) ;
#302 = CARTESIAN_POINT ( 'NONE',  ( 3.000000000000000000, 30.00000000000000000, 1000.000000000000000 ) ) ;
#303 = LINE ( 'NONE', #136, #145 ) ;
ENDSEC;
END-ISO-10303-21;
