ISO-10303-21;
HEADER;
FILE_DESCRIPTION (( 'STEP AP203' ),
    '1' );
FILE_NAME ('ALF-CC3838-3.8.step',
    '2024-08-13T06:59:58',
    ( '' ),
    ( '' ),
    'SwSTEP 2.0',
    'SolidWorks 2022',
    '' );
FILE_SCHEMA (( 'CONFIG_CONTROL_DESIGN' ));
ENDSEC;

DATA;
#1 = APPROVAL ( #193, 'UNSPECIFIED' ) ;
#2 = CARTESIAN_POINT ( 'NONE',  ( 38.00000000000000000, 3.799999999999999822, 0.000000000000000000 ) ) ;
#3 = AXIS2_PLACEMENT_3D ( 'NONE', #180, #289, #65 ) ;
#4 = CARTESIAN_POINT ( 'NONE',  ( -9.797174393178827630E-16, 38.00000000000000000, 1000.000000000000000 ) ) ;
#5 = EDGE_CURVE ( 'NONE', #159, #275, #120, .T. ) ;
#6 =( NAMED_UNIT ( * ) PLANE_ANGLE_UNIT ( ) SI_UNIT ( $, .RADIAN. ) );
#7 = VECTOR ( 'NONE', #218, 1000.000000000000000 ) ;
#8 = DIRECTION ( 'NONE',  ( 0.000000000000000000, -1.000000000000000000, 0.000000000000000000 ) ) ;
#9 = VERTEX_POINT ( 'NONE', #163 ) ;
#10 = PRODUCT ( 'ALF-CC3838-3.8', 'ALF-CC3838-3.8', '', ( #272 ) ) ;
#11 = VERTEX_POINT ( 'NONE', #250 ) ;
#12 = EDGE_CURVE ( 'NONE', #219, #9, #189, .T. ) ;
#13 = CARTESIAN_POINT ( 'NONE',  ( 0.000000000000000000, 0.000000000000000000, 0.000000000000000000 ) ) ;
#14 = FACE_OUTER_BOUND ( 'NONE', #87, .T. ) ;
#15 = VECTOR ( 'NONE', #31, 1000.000000000000000 ) ;
#16 = ORIENTED_EDGE ( 'NONE', *, *, #70, .F. ) ;
#17 = ORIENTED_EDGE ( 'NONE', *, *, #286, .T. ) ;
#18 = LINE ( 'NONE', #171, #271 ) ;
#19 = APPROVAL ( #99, 'UNSPECIFIED' ) ;
#20 = ORIENTED_EDGE ( 'NONE', *, *, #282, .T. ) ;
#21 = APPLICATION_PROTOCOL_DEFINITION ( 'international standard', 'config_control_design', 1994, #215 ) ;
#22 = CARTESIAN_POINT ( 'NONE',  ( 0.000000000000000000, 0.000000000000000000, 1000.000000000000000 ) ) ;
#23 = ADVANCED_FACE ( 'NONE', ( #93 ), #190, .F. ) ;
#24 = AXIS2_PLACEMENT_3D ( 'NONE', #256, #54, #147 ) ;
#25 = DIRECTION ( 'NONE',  ( -1.000000000000000000, -1.394879987993046596E-16, 0.000000000000000000 ) ) ;
#26 = PERSON_AND_ORGANIZATION ( #122, #251 ) ;
#27 = LOCAL_TIME ( 9, 59, 58.00000000000000000, #296 ) ;
#28 = VECTOR ( 'NONE', #142, 1000.000000000000000 ) ;
#29 = DATE_TIME_ROLE ( 'creation_date' ) ;
#30 = ORIENTED_EDGE ( 'NONE', *, *, #141, .T. ) ;
#31 = DIRECTION ( 'NONE',  ( -0.000000000000000000, -0.000000000000000000, -1.000000000000000000 ) ) ;
#32 = DIRECTION ( 'NONE',  ( -1.000000000000000000, -1.394879987993046596E-16, 0.000000000000000000 ) ) ;
#33 = LINE ( 'NONE', #2, #230 ) ;
#34 = UNCERTAINTY_MEASURE_WITH_UNIT (LENGTH_MEASURE( 1.000000000000000082E-05 ), #157, 'distance_accuracy_value', 'NONE');
#35 = LINE ( 'NONE', #37, #7 ) ;
#36 = ORIENTED_EDGE ( 'NONE', *, *, #53, .F. ) ;
#37 = CARTESIAN_POINT ( 'NONE',  ( 3.799999999999998934, 38.00000000000000000, 1000.000000000000000 ) ) ;
#38 = DIRECTION ( 'NONE',  ( 1.000000000000000000, 2.578203787678638882E-17, -0.000000000000000000 ) ) ;
#39 = ORIENTED_EDGE ( 'NONE', *, *, #261, .F. ) ;
#40 = EDGE_CURVE ( 'NONE', #205, #11, #48, .T. ) ;
#41 = EDGE_CURVE ( 'NONE', #83, #63, #168, .T. ) ;
#42 = CARTESIAN_POINT ( 'NONE',  ( 3.799999999999997602, 3.799999999999995381, 1000.000000000000000 ) ) ;
#43 = EDGE_LOOP ( 'NONE', ( #152, #36, #16, #247, #273, #241 ) ) ;
#44 = PERSON_AND_ORGANIZATION ( #122, #251 ) ;
#45 = CARTESIAN_POINT ( 'NONE',  ( 3.799999999999997602, 3.799999999999995381, 1000.000000000000000 ) ) ;
#46 = DIRECTION ( 'NONE',  ( 0.000000000000000000, 1.000000000000000000, 0.000000000000000000 ) ) ;
#47 = DATE_AND_TIME ( #164, #199 ) ;
#48 = LINE ( 'NONE', #253, #97 ) ;
#49 = CALENDAR_DATE ( 2024, 13, 8 ) ;
#50 = DIRECTION ( 'NONE',  ( 0.000000000000000000, 0.000000000000000000, 1.000000000000000000 ) ) ;
#51 = VECTOR ( 'NONE', #268, 1000.000000000000000 ) ;
#52 = PERSON_AND_ORGANIZATION_ROLE ( 'design_supplier' ) ;
#53 = EDGE_CURVE ( 'NONE', #156, #219, #145, .T. ) ;
#54 = DIRECTION ( 'NONE',  ( 1.394879987993046596E-16, -1.000000000000000000, 0.000000000000000000 ) ) ;
#55 = EDGE_CURVE ( 'NONE', #9, #275, #94, .T. ) ;
#56 = APPROVAL ( #198, 'UNSPECIFIED' ) ;
#57 = LINE ( 'NONE', #102, #128 ) ;
#58 = DATE_AND_TIME ( #262, #187 ) ;
#59 = ADVANCED_FACE ( 'NONE', ( #123 ), #248, .F. ) ;
#60 = DIRECTION ( 'NONE',  ( -0.000000000000000000, -0.000000000000000000, -1.000000000000000000 ) ) ;
#61 = ORIENTED_EDGE ( 'NONE', *, *, #12, .T. ) ;
#62 = DIRECTION ( 'NONE',  ( 0.000000000000000000, 1.000000000000000000, 0.000000000000000000 ) ) ;
#63 = VERTEX_POINT ( 'NONE', #45 ) ;
#64 = ADVANCED_FACE ( 'NONE', ( #212 ), #194, .T. ) ;
#65 = DIRECTION ( 'NONE',  ( -5.072290865429260460E-17, -1.000000000000000000, 0.000000000000000000 ) ) ;
#66 = VERTEX_POINT ( 'NONE', #227 ) ;
#67 = ADVANCED_FACE ( 'NONE', ( #236 ), #235, .F. ) ;
#68 = EDGE_LOOP ( 'NONE', ( #223, #89, #110, #201 ) ) ;
#69 = CARTESIAN_POINT ( 'NONE',  ( 0.000000000000000000, 0.000000000000000000, 1000.000000000000000 ) ) ;
#70 = EDGE_CURVE ( 'NONE', #11, #156, #33, .T. ) ;
#71 = AXIS2_PLACEMENT_3D ( 'NONE', #192, #50, #165 ) ;
#72 = CARTESIAN_POINT ( 'NONE',  ( 38.00000000000000000, 0.000000000000000000, 1000.000000000000000 ) ) ;
#73 = DATE_AND_TIME ( #280, #298 ) ;
#74 = FACE_OUTER_BOUND ( 'NONE', #292, .T. ) ;
#75 = APPROVAL_DATE_TIME ( #195, #19 ) ;
#76 = PLANE ( 'NONE',  #24 ) ;
#77 = DIRECTION ( 'NONE',  ( 0.000000000000000000, -0.000000000000000000, 1.000000000000000000 ) ) ;
#78 = CARTESIAN_POINT ( 'NONE',  ( 0.000000000000000000, 0.000000000000000000, 1000.000000000000000 ) ) ;
#79 = APPROVAL_PERSON_ORGANIZATION ( #154, #56, #287 ) ;
#80 = PRODUCT_RELATED_PRODUCT_CATEGORY ( 'detail', '', ( #10 ) ) ;
#81 = DIRECTION ( 'NONE',  ( -0.000000000000000000, -0.000000000000000000, -1.000000000000000000 ) ) ;
#82 = DIRECTION ( 'NONE',  ( 0.000000000000000000, -0.000000000000000000, -1.000000000000000000 ) ) ;
#83 = VERTEX_POINT ( 'NONE', #125 ) ;
#84 = LINE ( 'NONE', #176, #295 ) ;
#85 = CARTESIAN_POINT ( 'NONE',  ( 3.799999999999998934, 38.00000000000000000, 1000.000000000000000 ) ) ;
#86 = CARTESIAN_POINT ( 'NONE',  ( 38.00000000000000000, 0.000000000000000000, 1000.000000000000000 ) ) ;
#87 = EDGE_LOOP ( 'NONE', ( #132, #288, #181, #20 ) ) ;
#88 = DIRECTION ( 'NONE',  ( 1.000000000000000000, 0.000000000000000000, 0.000000000000000000 ) ) ;
#89 = ORIENTED_EDGE ( 'NONE', *, *, #186, .F. ) ;
#90 = PERSON_AND_ORGANIZATION ( #122, #251 ) ;
#91 = APPROVAL_ROLE ( '' ) ;
#92 = VECTOR ( 'NONE', #25, 1000.000000000000000 ) ;
#93 = FACE_OUTER_BOUND ( 'NONE', #68, .T. ) ;
#94 = LINE ( 'NONE', #232, #28 ) ;
#95 = COORDINATED_UNIVERSAL_TIME_OFFSET ( 3, 0, .AHEAD. ) ;
#96 = PRODUCT_DEFINITION_SHAPE ( 'NONE', 'NONE',  #118 ) ;
#97 = VECTOR ( 'NONE', #46, 1000.000000000000000 ) ;
#98 = EDGE_CURVE ( 'NONE', #275, #205, #214, .T. ) ;
#99 = APPROVAL_STATUS ( 'not_yet_approved' ) ;
#100 = AXIS2_PLACEMENT_3D ( 'NONE', #131, #38, #106 ) ;
#101 = APPROVAL_ROLE ( '' ) ;
#102 = CARTESIAN_POINT ( 'NONE',  ( -9.797174393178827630E-16, 38.00000000000000000, 1000.000000000000000 ) ) ;
#103 = FACE_OUTER_BOUND ( 'NONE', #177, .T. ) ;
#104 = ORIENTED_EDGE ( 'NONE', *, *, #278, .F. ) ;
#105 = APPROVAL_PERSON_ORGANIZATION ( #150, #19, #101 ) ;
#106 = DIRECTION ( 'NONE',  ( -2.578203787678638882E-17, 1.000000000000000000, 0.000000000000000000 ) ) ;
#107 = VECTOR ( 'NONE', #283, 1000.000000000000000 ) ;
#108 = ADVANCED_FACE ( 'NONE', ( #74 ), #76, .F. ) ;
#109 = EDGE_LOOP ( 'NONE', ( #265, #17, #112, #30, #208, #183 ) ) ;
#110 = ORIENTED_EDGE ( 'NONE', *, *, #141, .F. ) ;
#111 = CARTESIAN_POINT ( 'NONE',  ( 0.000000000000000000, 0.000000000000000000, 0.000000000000000000 ) ) ;
#112 = ORIENTED_EDGE ( 'NONE', *, *, #261, .T. ) ;
#113 = AXIS2_PLACEMENT_3D ( 'NONE', #284, #233, #77 ) ;
#114 = ORIENTED_EDGE ( 'NONE', *, *, #5, .T. ) ;
#115 = EDGE_CURVE ( 'NONE', #294, #9, #213, .T. ) ;
#116 = CC_DESIGN_PERSON_AND_ORGANIZATION_ASSIGNMENT ( #276, #184, ( #119 ) ) ;
#117 = DIRECTION ( 'NONE',  ( 5.072290865429260460E-17, 1.000000000000000000, 0.000000000000000000 ) ) ;
#118 = PRODUCT_DEFINITION ( 'UNKNOWN', '', #133, #211 ) ;
#119 = SECURITY_CLASSIFICATION ( '', '', #146 ) ;
#120 = LINE ( 'NONE', #22, #149 ) ;
#121 = DIRECTION ( 'NONE',  ( -1.000000000000000000, 0.000000000000000000, 0.000000000000000000 ) ) ;
#122 = PERSON ( 'UNSPECIFIED', 'UNSPECIFIED', 'UNSPECIFIED', ('UNSPECIFIED'), ('UNSPECIFIED'), ('UNSPECIFIED') ) ;
#123 = FACE_OUTER_BOUND ( 'NONE', #43, .T. ) ;
#124 = CARTESIAN_POINT ( 'NONE',  ( 0.000000000000000000, 0.000000000000000000, 0.000000000000000000 ) ) ;
#125 = CARTESIAN_POINT ( 'NONE',  ( 38.00000000000000000, 3.799999999999999822, 1000.000000000000000 ) ) ;
#126 = CC_DESIGN_SECURITY_CLASSIFICATION ( #119, ( #133 ) ) ;
#127 = ADVANCED_FACE ( 'NONE', ( #258 ), #158, .F. ) ;
#128 = VECTOR ( 'NONE', #290, 1000.000000000000000 ) ;
#129 = ORIENTED_EDGE ( 'NONE', *, *, #70, .T. ) ;
#130 = ADVANCED_FACE ( 'NONE', ( #103 ), #291, .F. ) ;
#131 = CARTESIAN_POINT ( 'NONE',  ( -9.797174393178827630E-16, 38.00000000000000000, 1000.000000000000000 ) ) ;
#132 = ORIENTED_EDGE ( 'NONE', *, *, #53, .T. ) ;
#133 = PRODUCT_DEFINITION_FORMATION_WITH_SPECIFIED_SOURCE ( 'ANY', '', #10, .NOT_KNOWN. ) ;
#134 = LINE ( 'NONE', #220, #51 ) ;
#135 = PLANE ( 'NONE',  #3 ) ;
#136 = EDGE_LOOP ( 'NONE', ( #293, #245, #39, #114 ) ) ;
#137 = ORIENTED_EDGE ( 'NONE', *, *, #5, .F. ) ;
#138 = MANIFOLD_SOLID_BREP ( 'Áîáûøêà-Âûòÿíóòü1', #240 ) ;
#139 = DIRECTION ( 'NONE',  ( 1.000000000000000000, 0.000000000000000000, -0.000000000000000000 ) ) ;
#140 = AXIS2_PLACEMENT_3D ( 'NONE', #85, #8, #82 ) ;
#141 = EDGE_CURVE ( 'NONE', #217, #83, #175, .T. ) ;
#142 = DIRECTION ( 'NONE',  ( 2.578203787678638882E-17, -1.000000000000000000, 0.000000000000000000 ) ) ;
#143 = ADVANCED_FACE ( 'NONE', ( #14 ), #135, .F. ) ;
#144 = CC_DESIGN_DATE_AND_TIME_ASSIGNMENT ( #47, #260, ( #119 ) ) ;
#145 = LINE ( 'NONE', #302, #210 ) ;
#146 = SECURITY_CLASSIFICATION_LEVEL ( 'unclassified' ) ;
#147 = DIRECTION ( 'NONE',  ( 1.000000000000000000, 1.394879987993046596E-16, 0.000000000000000000 ) ) ;
#148 = CALENDAR_DATE ( 2024, 13, 8 ) ;
#149 = VECTOR ( 'NONE', #209, 1000.000000000000000 ) ;
#150 = PERSON_AND_ORGANIZATION ( #122, #251 ) ;
#151 = DIRECTION ( 'NONE',  ( -0.000000000000000000, -0.000000000000000000, -1.000000000000000000 ) ) ;
#152 = ORIENTED_EDGE ( 'NONE', *, *, #12, .F. ) ;
#153 = ORIENTED_EDGE ( 'NONE', *, *, #186, .T. ) ;
#154 = PERSON_AND_ORGANIZATION ( #122, #251 ) ;
#155 = CARTESIAN_POINT ( 'NONE',  ( 3.799999999999998934, 38.00000000000000000, 0.000000000000000000 ) ) ;
#156 = VERTEX_POINT ( 'NONE', #263 ) ;
#157 =( LENGTH_UNIT ( ) NAMED_UNIT ( * ) SI_UNIT ( .MILLI., .METRE. ) );
#158 = PLANE ( 'NONE',  #100 ) ;
#159 = VERTEX_POINT ( 'NONE', #78 ) ;
#160 = CARTESIAN_POINT ( 'NONE',  ( 38.00000000000000000, 3.799999999999999822, 1000.000000000000000 ) ) ;
#161 = ORIENTED_EDGE ( 'NONE', *, *, #286, .F. ) ;
#162 = DIRECTION ( 'NONE',  ( 0.000000000000000000, 0.000000000000000000, 1.000000000000000000 ) ) ;
#163 = CARTESIAN_POINT ( 'NONE',  ( -9.797174393178827630E-16, 38.00000000000000000, 0.000000000000000000 ) ) ;
#164 = CALENDAR_DATE ( 2024, 13, 8 ) ;
#165 = DIRECTION ( 'NONE',  ( 1.000000000000000000, 0.000000000000000000, -0.000000000000000000 ) ) ;
#166 = DIRECTION ( 'NONE',  ( 0.000000000000000000, 0.000000000000000000, 1.000000000000000000 ) ) ;
#167 = CC_DESIGN_APPROVAL ( #1, ( #133 ) ) ;
#168 = LINE ( 'NONE', #249, #92 ) ;
#169 = CC_DESIGN_PERSON_AND_ORGANIZATION_ASSIGNMENT ( #26, #188, ( #133 ) ) ;
#170 = APPROVAL_PERSON_ORGANIZATION ( #303, #1, #91 ) ;
#171 = CARTESIAN_POINT ( 'NONE',  ( 0.000000000000000000, 0.000000000000000000, 1000.000000000000000 ) ) ;
#172 = COORDINATED_UNIVERSAL_TIME_OFFSET ( 3, 0, .AHEAD. ) ;
#173 = ORIENTED_EDGE ( 'NONE', *, *, #41, .F. ) ;
#174 = VECTOR ( 'NONE', #224, 1000.000000000000000 ) ;
#175 = LINE ( 'NONE', #86, #301 ) ;
#176 = CARTESIAN_POINT ( 'NONE',  ( 38.00000000000000000, 0.000000000000000000, 1000.000000000000000 ) ) ;
#177 = EDGE_LOOP ( 'NONE', ( #61, #270, #104, #244 ) ) ;
#178 = LOCAL_TIME ( 9, 59, 58.00000000000000000, #234 ) ;
#179 = CARTESIAN_POINT ( 'NONE',  ( 3.799999999999997602, 3.799999999999995381, 1000.000000000000000 ) ) ;
#180 = CARTESIAN_POINT ( 'NONE',  ( 3.799999999999997602, 3.799999999999995381, 1000.000000000000000 ) ) ;
#181 = ORIENTED_EDGE ( 'NONE', *, *, #259, .F. ) ;
#182 = APPLICATION_PROTOCOL_DEFINITION ( 'international standard', 'config_control_design', 1994, #254 ) ;
#183 = ORIENTED_EDGE ( 'NONE', *, *, #259, .T. ) ;
#184 = PERSON_AND_ORGANIZATION_ROLE ( 'classification_officer' ) ;
#185 = CC_DESIGN_PERSON_AND_ORGANIZATION_ASSIGNMENT ( #299, #228, ( #118 ) ) ;
#186 = EDGE_CURVE ( 'NONE', #83, #11, #266, .T. ) ;
#187 = LOCAL_TIME ( 9, 59, 58.00000000000000000, #172 ) ;
#188 = PERSON_AND_ORGANIZATION_ROLE ( 'creator' ) ;
#189 = LINE ( 'NONE', #277, #216 ) ;
#190 = PLANE ( 'NONE',  #221 ) ;
#191 = ADVANCED_BREP_SHAPE_REPRESENTATION ( 'ALF-CC3838-3.8', ( #138, #238 ), #203 ) ;
#192 = CARTESIAN_POINT ( 'NONE',  ( 0.000000000000000000, 0.000000000000000000, 0.000000000000000000 ) ) ;
#193 = APPROVAL_STATUS ( 'not_yet_approved' ) ;
#194 = PLANE ( 'NONE',  #197 ) ;
#195 = DATE_AND_TIME ( #148, #178 ) ;
#196 = SHAPE_DEFINITION_REPRESENTATION ( #96, #191 ) ;
#197 = AXIS2_PLACEMENT_3D ( 'NONE', #69, #162, #139 ) ;
#198 = APPROVAL_STATUS ( 'not_yet_approved' ) ;
#199 = LOCAL_TIME ( 9, 59, 58.00000000000000000, #274 ) ;
#200 = CARTESIAN_POINT ( 'NONE',  ( 38.00000000000000000, 0.000000000000000000, 1000.000000000000000 ) ) ;
#201 = ORIENTED_EDGE ( 'NONE', *, *, #300, .T. ) ;
#202 = ORIENTED_EDGE ( 'NONE', *, *, #282, .F. ) ;
#203 =( GEOMETRIC_REPRESENTATION_CONTEXT ( 3 ) GLOBAL_UNCERTAINTY_ASSIGNED_CONTEXT ( ( #34 ) ) GLOBAL_UNIT_ASSIGNED_CONTEXT ( ( #157, #6, #285 ) ) REPRESENTATION_CONTEXT ( 'NONE', 'WORKASPACE' ) );
#204 = EDGE_LOOP ( 'NONE', ( #225, #137, #161, #242 ) ) ;
#205 = VERTEX_POINT ( 'NONE', #243 ) ;
#206 = CC_DESIGN_APPROVAL ( #19, ( #119 ) ) ;
#207 = DIRECTION ( 'NONE',  ( 0.000000000000000000, 0.000000000000000000, 1.000000000000000000 ) ) ;
#208 = ORIENTED_EDGE ( 'NONE', *, *, #41, .T. ) ;
#209 = DIRECTION ( 'NONE',  ( -0.000000000000000000, -0.000000000000000000, -1.000000000000000000 ) ) ;
#210 = VECTOR ( 'NONE', #117, 1000.000000000000000 ) ;
#211 = DESIGN_CONTEXT ( 'detailed design', #215, 'design' ) ;
#212 = FACE_OUTER_BOUND ( 'NONE', #109, .T. ) ;
#213 = LINE ( 'NONE', #4, #15 ) ;
#214 = LINE ( 'NONE', #124, #107 ) ;
#215 = APPLICATION_CONTEXT ( 'configuration controlled 3d designs of mechanical parts and assemblies' ) ;
#216 = VECTOR ( 'NONE', #121, 1000.000000000000000 ) ;
#217 = VERTEX_POINT ( 'NONE', #200 ) ;
#218 = DIRECTION ( 'NONE',  ( -0.000000000000000000, -0.000000000000000000, -1.000000000000000000 ) ) ;
#219 = VERTEX_POINT ( 'NONE', #155 ) ;
#220 = CARTESIAN_POINT ( 'NONE',  ( 3.799999999999998934, 38.00000000000000000, 1000.000000000000000 ) ) ;
#221 = AXIS2_PLACEMENT_3D ( 'NONE', #72, #229, #166 ) ;
#222 = LINE ( 'NONE', #179, #264 ) ;
#223 = ORIENTED_EDGE ( 'NONE', *, *, #40, .T. ) ;
#224 = DIRECTION ( 'NONE',  ( 5.072290865429260460E-17, 1.000000000000000000, 0.000000000000000000 ) ) ;
#225 = ORIENTED_EDGE ( 'NONE', *, *, #55, .T. ) ;
#226 = PERSON_AND_ORGANIZATION_ROLE ( 'design_owner' ) ;
#227 = CARTESIAN_POINT ( 'NONE',  ( 3.799999999999998934, 38.00000000000000000, 1000.000000000000000 ) ) ;
#228 = PERSON_AND_ORGANIZATION_ROLE ( 'creator' ) ;
#229 = DIRECTION ( 'NONE',  ( -1.000000000000000000, 0.000000000000000000, 0.000000000000000000 ) ) ;
#230 = VECTOR ( 'NONE', #32, 1000.000000000000000 ) ;
#231 = CC_DESIGN_PERSON_AND_ORGANIZATION_ASSIGNMENT ( #90, #52, ( #133 ) ) ;
#232 = CARTESIAN_POINT ( 'NONE',  ( -9.797174393178827630E-16, 38.00000000000000000, 0.000000000000000000 ) ) ;
#233 = DIRECTION ( 'NONE',  ( 0.000000000000000000, 1.000000000000000000, 0.000000000000000000 ) ) ;
#234 = COORDINATED_UNIVERSAL_TIME_OFFSET ( 3, 0, .AHEAD. ) ;
#235 = PLANE ( 'NONE',  #113 ) ;
#236 = FACE_OUTER_BOUND ( 'NONE', #136, .T. ) ;
#237 = CC_DESIGN_PERSON_AND_ORGANIZATION_ASSIGNMENT ( #44, #226, ( #10 ) ) ;
#238 = AXIS2_PLACEMENT_3D ( 'NONE', #111, #207, #88 ) ;
#239 = DIRECTION ( 'NONE',  ( 1.000000000000000000, 0.000000000000000000, 0.000000000000000000 ) ) ;
#240 = CLOSED_SHELL ( 'NONE', ( #130, #127, #67, #23, #108, #143, #64, #59 ) ) ;
#241 = ORIENTED_EDGE ( 'NONE', *, *, #55, .F. ) ;
#242 = ORIENTED_EDGE ( 'NONE', *, *, #115, .T. ) ;
#243 = CARTESIAN_POINT ( 'NONE',  ( 38.00000000000000000, 0.000000000000000000, 0.000000000000000000 ) ) ;
#244 = ORIENTED_EDGE ( 'NONE', *, *, #267, .T. ) ;
#245 = ORIENTED_EDGE ( 'NONE', *, *, #300, .F. ) ;
#246 = LINE ( 'NONE', #42, #174 ) ;
#247 = ORIENTED_EDGE ( 'NONE', *, *, #40, .F. ) ;
#248 = PLANE ( 'NONE',  #71 ) ;
#249 = CARTESIAN_POINT ( 'NONE',  ( 38.00000000000000000, 3.799999999999999822, 1000.000000000000000 ) ) ;
#250 = CARTESIAN_POINT ( 'NONE',  ( 38.00000000000000000, 3.799999999999999822, 0.000000000000000000 ) ) ;
#251 = ORGANIZATION ( 'UNSPECIFIED', 'UNSPECIFIED', '' ) ;
#252 = APPROVAL_DATE_TIME ( #58, #56 ) ;
#253 = CARTESIAN_POINT ( 'NONE',  ( 38.00000000000000000, 0.000000000000000000, 0.000000000000000000 ) ) ;
#254 = APPLICATION_CONTEXT ( 'configuration controlled 3d designs of mechanical parts and assemblies' ) ;
#255 = APPROVAL_DATE_TIME ( #73, #1 ) ;
#256 = CARTESIAN_POINT ( 'NONE',  ( 38.00000000000000000, 3.799999999999999822, 1000.000000000000000 ) ) ;
#257 = CC_DESIGN_APPROVAL ( #56, ( #118 ) ) ;
#258 = FACE_OUTER_BOUND ( 'NONE', #204, .T. ) ;
#259 = EDGE_CURVE ( 'NONE', #63, #66, #246, .T. ) ;
#260 = DATE_TIME_ROLE ( 'classification_date' ) ;
#261 = EDGE_CURVE ( 'NONE', #159, #217, #18, .T. ) ;
#262 = CALENDAR_DATE ( 2024, 13, 8 ) ;
#263 = CARTESIAN_POINT ( 'NONE',  ( 3.799999999999997602, 3.799999999999995381, 0.000000000000000000 ) ) ;
#264 = VECTOR ( 'NONE', #151, 1000.000000000000000 ) ;
#265 = ORIENTED_EDGE ( 'NONE', *, *, #278, .T. ) ;
#266 = LINE ( 'NONE', #160, #281 ) ;
#267 = EDGE_CURVE ( 'NONE', #66, #219, #35, .T. ) ;
#268 = DIRECTION ( 'NONE',  ( -1.000000000000000000, 0.000000000000000000, 0.000000000000000000 ) ) ;
#269 = CARTESIAN_POINT ( 'NONE',  ( -9.797174393178827630E-16, 38.00000000000000000, 1000.000000000000000 ) ) ;
#270 = ORIENTED_EDGE ( 'NONE', *, *, #115, .F. ) ;
#271 = VECTOR ( 'NONE', #239, 1000.000000000000000 ) ;
#272 = MECHANICAL_CONTEXT ( 'NONE', #254, 'mechanical' ) ;
#273 = ORIENTED_EDGE ( 'NONE', *, *, #98, .F. ) ;
#274 = COORDINATED_UNIVERSAL_TIME_OFFSET ( 3, 0, .AHEAD. ) ;
#275 = VERTEX_POINT ( 'NONE', #13 ) ;
#276 = PERSON_AND_ORGANIZATION ( #122, #251 ) ;
#277 = CARTESIAN_POINT ( 'NONE',  ( 3.799999999999998934, 38.00000000000000000, 0.000000000000000000 ) ) ;
#278 = EDGE_CURVE ( 'NONE', #66, #294, #134, .T. ) ;
#279 = CC_DESIGN_DATE_AND_TIME_ASSIGNMENT ( #297, #29, ( #118 ) ) ;
#280 = CALENDAR_DATE ( 2024, 13, 8 ) ;
#281 = VECTOR ( 'NONE', #60, 1000.000000000000000 ) ;
#282 = EDGE_CURVE ( 'NONE', #63, #156, #222, .T. ) ;
#283 = DIRECTION ( 'NONE',  ( 1.000000000000000000, 0.000000000000000000, 0.000000000000000000 ) ) ;
#284 = CARTESIAN_POINT ( 'NONE',  ( 0.000000000000000000, 0.000000000000000000, 1000.000000000000000 ) ) ;
#285 =( NAMED_UNIT ( * ) SI_UNIT ( $, .STERADIAN. ) SOLID_ANGLE_UNIT ( ) );
#286 = EDGE_CURVE ( 'NONE', #294, #159, #57, .T. ) ;
#287 = APPROVAL_ROLE ( '' ) ;
#288 = ORIENTED_EDGE ( 'NONE', *, *, #267, .F. ) ;
#289 = DIRECTION ( 'NONE',  ( -1.000000000000000000, 5.072290865429260460E-17, 0.000000000000000000 ) ) ;
#290 = DIRECTION ( 'NONE',  ( 2.578203787678638882E-17, -1.000000000000000000, 0.000000000000000000 ) ) ;
#291 = PLANE ( 'NONE',  #140 ) ;
#292 = EDGE_LOOP ( 'NONE', ( #129, #202, #173, #153 ) ) ;
#293 = ORIENTED_EDGE ( 'NONE', *, *, #98, .T. ) ;
#294 = VERTEX_POINT ( 'NONE', #269 ) ;
#295 = VECTOR ( 'NONE', #81, 1000.000000000000000 ) ;
#296 = COORDINATED_UNIVERSAL_TIME_OFFSET ( 3, 0, .AHEAD. ) ;
#297 = DATE_AND_TIME ( #49, #27 ) ;
#298 = LOCAL_TIME ( 9, 59, 58.00000000000000000, #95 ) ;
#299 = PERSON_AND_ORGANIZATION ( #122, #251 ) ;
#300 = EDGE_CURVE ( 'NONE', #217, #205, #84, .T. ) ;
#301 = VECTOR ( 'NONE', #62, 1000.000000000000000 ) ;
#302 = CARTESIAN_POINT ( 'NONE',  ( 3.799999999999997602, 3.799999999999995381, 0.000000000000000000 ) ) ;
#303 = PERSON_AND_ORGANIZATION ( #122, #251 ) ;
ENDSEC;
END-ISO-10303-21;
